ISO-10303-21;
HEADER;
FILE_DESCRIPTION (( 'STEP AP203' ),
    '1' );
FILE_NAME ('Q-QZWP-R4-12.7-980-M.STEP',
    '2020-12-23T01:24:46',
    ( '' ),
    ( '' ),
    'SwSTEP 2.0',
    'SolidWorks 2020',
    '' );
FILE_SCHEMA (( 'CONFIG_CONTROL_DESIGN' ));
ENDSEC;

DATA;
#1 = CC_DESIGN_DATE_AND_TIME_ASSIGNMENT ( #45, #251, ( #318 ) ) ;
#2 = CARTESIAN_POINT ( 'NONE',  ( -1.614212418857619014, 0.000000000000000000, 0.000000000000000000 ) ) ;
#3 = DIRECTION ( 'NONE',  ( -1.000000000000000000, -0.000000000000000000, -0.000000000000000000 ) ) ;
#4 = ORIENTED_EDGE ( 'NONE', *, *, #173, .T. ) ;
#5 = EDGE_LOOP ( 'NONE', ( #269, #298 ) ) ;
#6 = FACE_OUTER_BOUND ( 'NONE', #73, .T. ) ;
#7 = ORIENTED_EDGE ( 'NONE', *, *, #37, .T. ) ;
#8 = DIRECTION ( 'NONE',  ( 1.000000000000000000, 0.000000000000000000, 0.000000000000000000 ) ) ;
#9 = ORIENTED_EDGE ( 'NONE', *, *, #287, .T. ) ;
#10 = DIRECTION ( 'NONE',  ( -1.000000000000000000, -0.000000000000000000, -0.000000000000000000 ) ) ;
#11 = ORIENTED_EDGE ( 'NONE', *, *, #252, .T. ) ;
#12 = PERSON_AND_ORGANIZATION_ROLE ( 'design_owner' ) ;
#13 = VECTOR ( 'NONE', #129, 1000.000000000000000 ) ;
#14 = ORIENTED_EDGE ( 'NONE', *, *, #101, .T. ) ;
#15 = EDGE_CURVE ( 'NONE', #75, #285, #253, .T. ) ;
#16 = CALENDAR_DATE ( 2020, 23, 12 ) ;
#17 = PERSON_AND_ORGANIZATION ( #297, #126 ) ;
#18 = VECTOR ( 'NONE', #150, 1000.000000000000000 ) ;
#19 = VERTEX_POINT ( 'NONE', #304 ) ;
#20 = CC_DESIGN_APPROVAL ( #93, ( #79 ) ) ;
#21 = ORIENTED_EDGE ( 'NONE', *, *, #258, .F. ) ;
#22 = PERSON_AND_ORGANIZATION_ROLE ( 'classification_officer' ) ;
#23 = CARTESIAN_POINT ( 'NONE',  ( -1.614212418857619014, 7.776507174585692163E-16, -6.349999999999999645 ) ) ;
#24 = AXIS2_PLACEMENT_3D ( 'NONE', #335, #254, #120 ) ;
#25 = CARTESIAN_POINT ( 'NONE',  ( 3.000000000000000000, 12.69999999999999929, 0.000000000000000000 ) ) ;
#26 = LINE ( 'NONE', #241, #13 ) ;
#27 = EDGE_LOOP ( 'NONE', ( #137, #183, #36, #313 ) ) ;
#28 = EDGE_CURVE ( 'NONE', #143, #82, #279, .T. ) ;
#29 = CARTESIAN_POINT ( 'NONE',  ( -3.000000000000000000, 0.000000000000000000, 0.000000000000000000 ) ) ;
#30 = ADVANCED_FACE ( 'NONE', ( #257 ), #308, .F. ) ;
#31 = CARTESIAN_POINT ( 'NONE',  ( 3.000000000000000888, 0.000000000000000000, 6.349999999999999645 ) ) ;
#32 = AXIS2_PLACEMENT_3D ( 'NONE', #330, #256, #102 ) ;
#33 = APPROVAL_ROLE ( '' ) ;
#34 = CC_DESIGN_PERSON_AND_ORGANIZATION_ASSIGNMENT ( #72, #22, ( #300 ) ) ;
#35 = DIRECTION ( 'NONE',  ( -1.000000000000000000, -0.000000000000000000, -0.000000000000000000 ) ) ;
#36 = ORIENTED_EDGE ( 'NONE', *, *, #258, .T. ) ;
#37 = EDGE_CURVE ( 'NONE', #331, #39, #303, .T. ) ;
#38 = DIRECTION ( 'NONE',  ( -1.000000000000000000, -0.000000000000000000, -0.000000000000000000 ) ) ;
#39 = VERTEX_POINT ( 'NONE', #71 ) ;
#40 = ADVANCED_FACE ( 'NONE', ( #259 ), #307, .F. ) ;
#41 = COORDINATED_UNIVERSAL_TIME_OFFSET ( 8, 0, .AHEAD. ) ;
#42 = AXIS2_PLACEMENT_3D ( 'NONE', #182, #288, #55 ) ;
#43 = DIRECTION ( 'NONE',  ( 0.000000000000000000, 0.000000000000000000, 1.000000000000000000 ) ) ;
#44 = AXIS2_PLACEMENT_3D ( 'NONE', #179, #151, #261 ) ;
#45 = DATE_AND_TIME ( #197, #226 ) ;
#46 = AXIS2_PLACEMENT_3D ( 'NONE', #317, #8, #294 ) ;
#47 = DIRECTION ( 'NONE',  ( 0.000000000000000000, 0.000000000000000000, 1.000000000000000000 ) ) ;
#48 = CARTESIAN_POINT ( 'NONE',  ( 1.500000000000000888, 0.000000000000000000, 0.000000000000000000 ) ) ;
#49 = CIRCLE ( 'NONE', #232, 6.349999999999999645 ) ;
#50 = LINE ( 'NONE', #306, #18 ) ;
#51 = COORDINATED_UNIVERSAL_TIME_OFFSET ( 8, 0, .AHEAD. ) ;
#52 = PLANE ( 'NONE',  #299 ) ;
#53 = CYLINDRICAL_SURFACE ( 'NONE', #312, 6.349999999999999645 ) ;
#54 = CYLINDRICAL_SURFACE ( 'NONE', #115, 6.349999999999999645 ) ;
#55 = DIRECTION ( 'NONE',  ( -0.000000000000000000, 0.000000000000000000, 1.000000000000000000 ) ) ;
#56 = ORIENTED_EDGE ( 'NONE', *, *, #28, .F. ) ;
#57 = DIRECTION ( 'NONE',  ( 0.000000000000000000, 0.000000000000000000, 1.000000000000000000 ) ) ;
#58 = CARTESIAN_POINT ( 'NONE',  ( 3.000000000000000888, 0.000000000000000000, 0.000000000000000000 ) ) ;
#59 = ORIENTED_EDGE ( 'NONE', *, *, #28, .T. ) ;
#60 = DIRECTION ( 'NONE',  ( -1.000000000000000000, -0.000000000000000000, -0.000000000000000000 ) ) ;
#61 = APPROVAL ( #91, 'UNSPECIFIED' ) ;
#62 = UNCERTAINTY_MEASURE_WITH_UNIT (LENGTH_MEASURE( 1.000000000000000082E-05 ), #167, 'distance_accuracy_value', 'NONE');
#63 =( NAMED_UNIT ( * ) PLANE_ANGLE_UNIT ( ) SI_UNIT ( $, .RADIAN. ) );
#64 = VECTOR ( 'NONE', #124, 1000.000000000000000 ) ;
#65 = PERSON_AND_ORGANIZATION_ROLE ( 'creator' ) ;
#66 = LOCAL_TIME ( 9, 24, 46.00000000000000000, #310 ) ;
#67 = ADVANCED_BREP_SHAPE_REPRESENTATION ( 'Q-QZWP-R4-12.7-980-M', ( #201, #175 ), #140 ) ;
#68 = DESIGN_CONTEXT ( 'detailed design', #154, 'design' ) ;
#69 = ADVANCED_FACE ( 'NONE', ( #104 ), #53, .F. ) ;
#70 = APPROVAL_ROLE ( '' ) ;
#71 = CARTESIAN_POINT ( 'NONE',  ( 1.500000000000000888, 7.776507174585692163E-16, -6.349999999999999645 ) ) ;
#72 = PERSON_AND_ORGANIZATION ( #297, #126 ) ;
#73 = EDGE_LOOP ( 'NONE', ( #87, #332 ) ) ;
#74 = DIRECTION ( 'NONE',  ( 0.000000000000000000, 0.000000000000000000, 1.000000000000000000 ) ) ;
#75 = VERTEX_POINT ( 'NONE', #203 ) ;
#76 = CARTESIAN_POINT ( 'NONE',  ( -2.999999999999999556, 0.000000000000000000, 6.349999999999999645 ) ) ;
#77 = PLANE ( 'NONE',  #42 ) ;
#78 = ORIENTED_EDGE ( 'NONE', *, *, #111, .F. ) ;
#79 = PRODUCT_DEFINITION_FORMATION_WITH_SPECIFIED_SOURCE ( 'ANY', '', #301, .NOT_KNOWN. ) ;
#80 = CALENDAR_DATE ( 2020, 23, 12 ) ;
#81 = CARTESIAN_POINT ( 'NONE',  ( 1.500000000000000888, 0.000000000000000000, 0.000000000000000000 ) ) ;
#82 = VERTEX_POINT ( 'NONE', #178 ) ;
#83 = APPROVAL_STATUS ( 'not_yet_approved' ) ;
#84 = DIRECTION ( 'NONE',  ( 0.000000000000000000, 0.000000000000000000, 1.000000000000000000 ) ) ;
#85 = DIRECTION ( 'NONE',  ( 0.000000000000000000, 0.000000000000000000, -1.000000000000000000 ) ) ;
#86 = VERTEX_POINT ( 'NONE', #174 ) ;
#87 = ORIENTED_EDGE ( 'NONE', *, *, #37, .F. ) ;
#88 = CARTESIAN_POINT ( 'NONE',  ( -1.500000000000000444, 0.000000000000000000, 0.000000000000000000 ) ) ;
#89 = APPROVAL_DATE_TIME ( #95, #93 ) ;
#90 = CLOSED_SHELL ( 'NONE', ( #96, #159, #40, #282, #30, #69, #177, #229, #118, #180 ) ) ;
#91 = APPROVAL_STATUS ( 'not_yet_approved' ) ;
#92 = CIRCLE ( 'NONE', #247, 12.69999999999999929 ) ;
#93 = APPROVAL ( #224, 'UNSPECIFIED' ) ;
#94 = PERSON_AND_ORGANIZATION ( #297, #126 ) ;
#95 = DATE_AND_TIME ( #16, #273 ) ;
#96 = ADVANCED_FACE ( 'NONE', ( #207 ), #206, .T. ) ;
#97 = CARTESIAN_POINT ( 'NONE',  ( -3.000000000000000000, 0.000000000000000000, 0.000000000000000000 ) ) ;
#98 = LOCAL_TIME ( 9, 24, 46.00000000000000000, #168 ) ;
#99 = CARTESIAN_POINT ( 'NONE',  ( -2.999999999999999556, 0.000000000000000000, 0.000000000000000000 ) ) ;
#100 = ORIENTED_EDGE ( 'NONE', *, *, #101, .F. ) ;
#101 = EDGE_CURVE ( 'NONE', #86, #39, #50, .T. ) ;
#102 = DIRECTION ( 'NONE',  ( 0.000000000000000000, 0.000000000000000000, 1.000000000000000000 ) ) ;
#103 = SECURITY_CLASSIFICATION_LEVEL ( 'unclassified' ) ;
#104 = FACE_OUTER_BOUND ( 'NONE', #186, .T. ) ;
#105 = PLANE ( 'NONE',  #46 ) ;
#106 = DIRECTION ( 'NONE',  ( 0.000000000000000000, 0.000000000000000000, 1.000000000000000000 ) ) ;
#107 = ORIENTED_EDGE ( 'NONE', *, *, #184, .T. ) ;
#108 = VECTOR ( 'NONE', #60, 1000.000000000000000 ) ;
#109 = DIRECTION ( 'NONE',  ( 1.000000000000000000, 0.000000000000000000, 0.000000000000000000 ) ) ;
#110 = EDGE_LOOP ( 'NONE', ( #56, #21 ) ) ;
#111 = EDGE_CURVE ( 'NONE', #321, #82, #149, .T. ) ;
#112 = DIRECTION ( 'NONE',  ( 1.000000000000000000, 0.000000000000000000, 0.000000000000000000 ) ) ;
#113 = FACE_OUTER_BOUND ( 'NONE', #27, .T. ) ;
#114 = ORIENTED_EDGE ( 'NONE', *, *, #146, .F. ) ;
#115 = AXIS2_PLACEMENT_3D ( 'NONE', #2, #237, #57 ) ;
#116 = ORIENTED_EDGE ( 'NONE', *, *, #326, .T. ) ;
#117 = CALENDAR_DATE ( 2020, 23, 12 ) ;
#118 = ADVANCED_FACE ( 'NONE', ( #230, #284 ), #52, .F. ) ;
#119 = DATE_AND_TIME ( #117, #98 ) ;
#120 = DIRECTION ( 'NONE',  ( 0.000000000000000000, 0.000000000000000000, 1.000000000000000000 ) ) ;
#121 = APPROVAL_PERSON_ORGANIZATION ( #199, #61, #70 ) ;
#122 = PERSON_AND_ORGANIZATION ( #297, #126 ) ;
#123 = ORIENTED_EDGE ( 'NONE', *, *, #302, .F. ) ;
#124 = DIRECTION ( 'NONE',  ( -1.000000000000000000, -0.000000000000000000, -0.000000000000000000 ) ) ;
#125 = DIRECTION ( 'NONE',  ( -1.000000000000000000, 0.000000000000000000, -0.000000000000000000 ) ) ;
#126 = ORGANIZATION ( 'UNSPECIFIED', 'UNSPECIFIED', '' ) ;
#127 = ORIENTED_EDGE ( 'NONE', *, *, #217, .T. ) ;
#128 = ORIENTED_EDGE ( 'NONE', *, *, #326, .F. ) ;
#129 = DIRECTION ( 'NONE',  ( -1.000000000000000000, -0.000000000000000000, -0.000000000000000000 ) ) ;
#130 = ORIENTED_EDGE ( 'NONE', *, *, #146, .T. ) ;
#131 = CIRCLE ( 'NONE', #44, 12.69999999999999929 ) ;
#132 = CARTESIAN_POINT ( 'NONE',  ( 3.000000000000000000, 0.000000000000000000, 0.000000000000000000 ) ) ;
#133 = APPLICATION_CONTEXT ( 'configuration controlled 3d designs of mechanical parts and assemblies' ) ;
#134 = EDGE_LOOP ( 'NONE', ( #316, #123 ) ) ;
#135 = CIRCLE ( 'NONE', #277, 6.349999999999999645 ) ;
#136 = CARTESIAN_POINT ( 'NONE',  ( -1.500000000000000444, 0.000000000000000000, 0.000000000000000000 ) ) ;
#137 = ORIENTED_EDGE ( 'NONE', *, *, #244, .T. ) ;
#138 = ORIENTED_EDGE ( 'NONE', *, *, #193, .F. ) ;
#139 = LINE ( 'NONE', #218, #286 ) ;
#140 =( GEOMETRIC_REPRESENTATION_CONTEXT ( 3 ) GLOBAL_UNCERTAINTY_ASSIGNED_CONTEXT ( ( #62 ) ) GLOBAL_UNIT_ASSIGNED_CONTEXT ( ( #167, #63, #222 ) ) REPRESENTATION_CONTEXT ( 'NONE', 'WORKASPACE' ) );
#141 = DIRECTION ( 'NONE',  ( 1.000000000000000000, 0.000000000000000000, 0.000000000000000000 ) ) ;
#142 = EDGE_LOOP ( 'NONE', ( #9, #250, #138, #291 ) ) ;
#143 = VERTEX_POINT ( 'NONE', #76 ) ;
#144 = DIRECTION ( 'NONE',  ( 1.000000000000000000, 0.000000000000000000, 0.000000000000000000 ) ) ;
#145 = AXIS2_PLACEMENT_3D ( 'NONE', #88, #144, #248 ) ;
#146 = EDGE_CURVE ( 'NONE', #243, #265, #131, .T. ) ;
#147 = DIRECTION ( 'NONE',  ( 0.000000000000000000, 0.000000000000000000, 1.000000000000000000 ) ) ;
#148 = CC_DESIGN_SECURITY_CLASSIFICATION ( #300, ( #79 ) ) ;
#149 = LINE ( 'NONE', #23, #64 ) ;
#150 = DIRECTION ( 'NONE',  ( -1.000000000000000000, -0.000000000000000000, -0.000000000000000000 ) ) ;
#151 = DIRECTION ( 'NONE',  ( -1.000000000000000000, -0.000000000000000000, -0.000000000000000000 ) ) ;
#152 = CIRCLE ( 'NONE', #145, 6.349999999999999645 ) ;
#153 = LINE ( 'NONE', #215, #108 ) ;
#154 = APPLICATION_CONTEXT ( 'configuration controlled 3d designs of mechanical parts and assemblies' ) ;
#155 = EDGE_LOOP ( 'NONE', ( #271, #114 ) ) ;
#156 = EDGE_CURVE ( 'NONE', #243, #75, #26, .T. ) ;
#157 = FACE_OUTER_BOUND ( 'NONE', #212, .T. ) ;
#158 = EDGE_LOOP ( 'NONE', ( #128, #14, #127, #236 ) ) ;
#159 = ADVANCED_FACE ( 'NONE', ( #113 ), #54, .F. ) ;
#160 = CYLINDRICAL_SURFACE ( 'NONE', #220, 12.69999999999999929 ) ;
#161 = DIRECTION ( 'NONE',  ( 0.000000000000000000, 0.000000000000000000, -1.000000000000000000 ) ) ;
#162 = DIRECTION ( 'NONE',  ( 0.000000000000000000, 0.000000000000000000, 1.000000000000000000 ) ) ;
#163 = ORIENTED_EDGE ( 'NONE', *, *, #156, .F. ) ;
#164 = DIRECTION ( 'NONE',  ( 0.000000000000000000, 0.000000000000000000, 1.000000000000000000 ) ) ;
#165 = VECTOR ( 'NONE', #35, 1000.000000000000000 ) ;
#166 = PERSON_AND_ORGANIZATION ( #297, #126 ) ;
#167 =( LENGTH_UNIT ( ) NAMED_UNIT ( * ) SI_UNIT ( .MILLI., .METRE. ) );
#168 = COORDINATED_UNIVERSAL_TIME_OFFSET ( 8, 0, .AHEAD. ) ;
#169 = AXIS2_PLACEMENT_3D ( 'NONE', #97, #202, #74 ) ;
#170 = APPROVAL_PERSON_ORGANIZATION ( #235, #187, #33 ) ;
#171 = CC_DESIGN_PERSON_AND_ORGANIZATION_ASSIGNMENT ( #122, #305, ( #79 ) ) ;
#172 = DIRECTION ( 'NONE',  ( -1.000000000000000000, -0.000000000000000000, -0.000000000000000000 ) ) ;
#173 = EDGE_CURVE ( 'NONE', #239, #86, #281, .T. ) ;
#174 = CARTESIAN_POINT ( 'NONE',  ( 3.000000000000000888, 7.776507174585692163E-16, -6.349999999999999645 ) ) ;
#175 = AXIS2_PLACEMENT_3D ( 'NONE', #192, #245, #141 ) ;
#176 = CARTESIAN_POINT ( 'NONE',  ( -1.614212418857619014, 0.000000000000000000, 0.000000000000000000 ) ) ;
#177 = ADVANCED_FACE ( 'NONE', ( #262, #292 ), #105, .F. ) ;
#178 = CARTESIAN_POINT ( 'NONE',  ( -2.999999999999999556, 7.776507174585692163E-16, -6.349999999999999645 ) ) ;
#179 = CARTESIAN_POINT ( 'NONE',  ( 3.000000000000000000, 0.000000000000000000, 0.000000000000000000 ) ) ;
#180 = ADVANCED_FACE ( 'NONE', ( #266 ), #190, .F. ) ;
#181 = DATE_TIME_ROLE ( 'classification_date' ) ;
#182 = CARTESIAN_POINT ( 'NONE',  ( 1.500000000000000444, 6.349999999999999645, 0.000000000000000000 ) ) ;
#183 = ORIENTED_EDGE ( 'NONE', *, *, #111, .T. ) ;
#184 = EDGE_CURVE ( 'NONE', #265, #285, #153, .T. ) ;
#185 = DIRECTION ( 'NONE',  ( -1.000000000000000000, -0.000000000000000000, -0.000000000000000000 ) ) ;
#186 = EDGE_LOOP ( 'NONE', ( #78, #289, #189, #59 ) ) ;
#187 = APPROVAL ( #83, 'UNSPECIFIED' ) ;
#188 = LINE ( 'NONE', #268, #165 ) ;
#189 = ORIENTED_EDGE ( 'NONE', *, *, #267, .T. ) ;
#190 = PLANE ( 'NONE',  #196 ) ;
#191 = EDGE_LOOP ( 'NONE', ( #100, #295, #11, #7 ) ) ;
#192 = CARTESIAN_POINT ( 'NONE',  ( 0.000000000000000000, 0.000000000000000000, 0.000000000000000000 ) ) ;
#193 = EDGE_CURVE ( 'NONE', #285, #75, #92, .T. ) ;
#194 = PERSON_AND_ORGANIZATION ( #297, #126 ) ;
#195 = APPROVAL_PERSON_ORGANIZATION ( #17, #93, #327 ) ;
#196 = AXIS2_PLACEMENT_3D ( 'NONE', #213, #109, #161 ) ;
#197 = CALENDAR_DATE ( 2020, 23, 12 ) ;
#198 = CC_DESIGN_PERSON_AND_ORGANIZATION_ASSIGNMENT ( #166, #221, ( #318 ) ) ;
#199 = PERSON_AND_ORGANIZATION ( #297, #126 ) ;
#200 = CARTESIAN_POINT ( 'NONE',  ( -1.500000000000000444, 7.776507174585692163E-16, -6.349999999999999645 ) ) ;
#201 = MANIFOLD_SOLID_BREP ( 'Ðý×', #90 ) ;
#202 = DIRECTION ( 'NONE',  ( -1.000000000000000000, -0.000000000000000000, -0.000000000000000000 ) ) ;
#203 = CARTESIAN_POINT ( 'NONE',  ( -3.000000000000000000, 1.555301434917138433E-15, -12.69999999999999929 ) ) ;
#204 = DIRECTION ( 'NONE',  ( -1.000000000000000000, -0.000000000000000000, -0.000000000000000000 ) ) ;
#205 = CIRCLE ( 'NONE', #325, 6.349999999999999645 ) ;
#206 = CYLINDRICAL_SURFACE ( 'NONE', #209, 12.69999999999999929 ) ;
#207 = FACE_OUTER_BOUND ( 'NONE', #142, .T. ) ;
#208 = DIRECTION ( 'NONE',  ( 0.000000000000000000, 0.000000000000000000, 1.000000000000000000 ) ) ;
#209 = AXIS2_PLACEMENT_3D ( 'NONE', #280, #233, #278 ) ;
#210 = SHAPE_DEFINITION_REPRESENTATION ( #216, #67 ) ;
#211 = LOCAL_TIME ( 9, 24, 46.00000000000000000, #51 ) ;
#212 = EDGE_LOOP ( 'NONE', ( #163, #130, #107, #246 ) ) ;
#213 = CARTESIAN_POINT ( 'NONE',  ( -1.500000000000000444, 6.349999999999999645, 0.000000000000000000 ) ) ;
#214 = CC_DESIGN_DATE_AND_TIME_ASSIGNMENT ( #334, #181, ( #300 ) ) ;
#215 = CARTESIAN_POINT ( 'NONE',  ( -1.614212418857619014, 0.000000000000000000, 12.69999999999999929 ) ) ;
#216 = PRODUCT_DEFINITION_SHAPE ( 'NONE', 'NONE',  #318 ) ;
#217 = EDGE_CURVE ( 'NONE', #39, #331, #314, .T. ) ;
#218 = CARTESIAN_POINT ( 'NONE',  ( -1.614212418857619014, 0.000000000000000000, 6.349999999999999645 ) ) ;
#219 = EDGE_LOOP ( 'NONE', ( #4, #116 ) ) ;
#220 = AXIS2_PLACEMENT_3D ( 'NONE', #290, #185, #84 ) ;
#221 = PERSON_AND_ORGANIZATION_ROLE ( 'creator' ) ;
#222 =( NAMED_UNIT ( * ) SI_UNIT ( $, .STERADIAN. ) SOLID_ANGLE_UNIT ( ) );
#223 = DIRECTION ( 'NONE',  ( -1.000000000000000000, -0.000000000000000000, -0.000000000000000000 ) ) ;
#224 = APPROVAL_STATUS ( 'not_yet_approved' ) ;
#225 = AXIS2_PLACEMENT_3D ( 'NONE', #48, #228, #147 ) ;
#226 = LOCAL_TIME ( 9, 24, 46.00000000000000000, #276 ) ;
#227 = CC_DESIGN_PERSON_AND_ORGANIZATION_ASSIGNMENT ( #94, #12, ( #301 ) ) ;
#228 = DIRECTION ( 'NONE',  ( -1.000000000000000000, -0.000000000000000000, -0.000000000000000000 ) ) ;
#229 = ADVANCED_FACE ( 'NONE', ( #157 ), #160, .T. ) ;
#230 = FACE_OUTER_BOUND ( 'NONE', #155, .T. ) ;
#231 = CALENDAR_DATE ( 2020, 23, 12 ) ;
#232 = AXIS2_PLACEMENT_3D ( 'NONE', #242, #10, #162 ) ;
#233 = DIRECTION ( 'NONE',  ( -1.000000000000000000, -0.000000000000000000, -0.000000000000000000 ) ) ;
#234 = CC_DESIGN_PERSON_AND_ORGANIZATION_ASSIGNMENT ( #194, #65, ( #79 ) ) ;
#235 = PERSON_AND_ORGANIZATION ( #297, #126 ) ;
#236 = ORIENTED_EDGE ( 'NONE', *, *, #252, .F. ) ;
#237 = DIRECTION ( 'NONE',  ( -1.000000000000000000, -0.000000000000000000, -0.000000000000000000 ) ) ;
#238 = DIRECTION ( 'NONE',  ( -1.000000000000000000, -0.000000000000000000, -0.000000000000000000 ) ) ;
#239 = VERTEX_POINT ( 'NONE', #31 ) ;
#240 = APPROVAL_DATE_TIME ( #263, #187 ) ;
#241 = CARTESIAN_POINT ( 'NONE',  ( -1.614212418857619014, 1.555301434917138433E-15, -12.69999999999999929 ) ) ;
#242 = CARTESIAN_POINT ( 'NONE',  ( -2.999999999999999556, 0.000000000000000000, 0.000000000000000000 ) ) ;
#243 = VERTEX_POINT ( 'NONE', #270 ) ;
#244 = EDGE_CURVE ( 'NONE', #19, #321, #135, .T. ) ;
#245 = DIRECTION ( 'NONE',  ( 0.000000000000000000, 0.000000000000000000, 1.000000000000000000 ) ) ;
#246 = ORIENTED_EDGE ( 'NONE', *, *, #15, .F. ) ;
#247 = AXIS2_PLACEMENT_3D ( 'NONE', #29, #238, #319 ) ;
#248 = DIRECTION ( 'NONE',  ( 0.000000000000000000, 0.000000000000000000, -1.000000000000000000 ) ) ;
#249 = PRODUCT_RELATED_PRODUCT_CATEGORY ( 'detail', '', ( #301 ) ) ;
#250 = ORIENTED_EDGE ( 'NONE', *, *, #156, .T. ) ;
#251 = DATE_TIME_ROLE ( 'creation_date' ) ;
#252 = EDGE_CURVE ( 'NONE', #239, #331, #188, .T. ) ;
#253 = CIRCLE ( 'NONE', #169, 12.69999999999999929 ) ;
#254 = DIRECTION ( 'NONE',  ( -1.000000000000000000, -0.000000000000000000, -0.000000000000000000 ) ) ;
#255 = CC_DESIGN_APPROVAL ( #187, ( #300 ) ) ;
#256 = DIRECTION ( 'NONE',  ( -1.000000000000000000, -0.000000000000000000, -0.000000000000000000 ) ) ;
#257 = FACE_OUTER_BOUND ( 'NONE', #191, .T. ) ;
#258 = EDGE_CURVE ( 'NONE', #82, #143, #49, .T. ) ;
#259 = FACE_OUTER_BOUND ( 'NONE', #158, .T. ) ;
#260 = AXIS2_PLACEMENT_3D ( 'NONE', #58, #3, #208 ) ;
#261 = DIRECTION ( 'NONE',  ( 0.000000000000000000, 0.000000000000000000, 1.000000000000000000 ) ) ;
#262 = FACE_BOUND ( 'NONE', #110, .T. ) ;
#263 = DATE_AND_TIME ( #80, #66 ) ;
#264 = CARTESIAN_POINT ( 'NONE',  ( -3.000000000000000000, 0.000000000000000000, 12.69999999999999929 ) ) ;
#265 = VERTEX_POINT ( 'NONE', #311 ) ;
#266 = FACE_OUTER_BOUND ( 'NONE', #134, .T. ) ;
#267 = EDGE_CURVE ( 'NONE', #19, #143, #139, .T. ) ;
#268 = CARTESIAN_POINT ( 'NONE',  ( -1.614212418857619014, 0.000000000000000000, 6.349999999999999645 ) ) ;
#269 = ORIENTED_EDGE ( 'NONE', *, *, #193, .T. ) ;
#270 = CARTESIAN_POINT ( 'NONE',  ( 3.000000000000000000, 1.555301434917138433E-15, -12.69999999999999929 ) ) ;
#271 = ORIENTED_EDGE ( 'NONE', *, *, #287, .F. ) ;
#272 = MECHANICAL_CONTEXT ( 'NONE', #133, 'mechanical' ) ;
#273 = LOCAL_TIME ( 9, 24, 46.00000000000000000, #41 ) ;
#274 = DIRECTION ( 'NONE',  ( -1.000000000000000000, -0.000000000000000000, -0.000000000000000000 ) ) ;
#275 = CARTESIAN_POINT ( 'NONE',  ( 3.000000000000000888, 0.000000000000000000, 0.000000000000000000 ) ) ;
#276 = COORDINATED_UNIVERSAL_TIME_OFFSET ( 8, 0, .AHEAD. ) ;
#277 = AXIS2_PLACEMENT_3D ( 'NONE', #136, #112, #85 ) ;
#278 = DIRECTION ( 'NONE',  ( 0.000000000000000000, 0.000000000000000000, 1.000000000000000000 ) ) ;
#279 = CIRCLE ( 'NONE', #328, 6.349999999999999645 ) ;
#280 = CARTESIAN_POINT ( 'NONE',  ( -1.614212418857619014, 0.000000000000000000, 0.000000000000000000 ) ) ;
#281 = CIRCLE ( 'NONE', #260, 6.349999999999999645 ) ;
#282 = ADVANCED_FACE ( 'NONE', ( #6 ), #77, .F. ) ;
#283 = DIRECTION ( 'NONE',  ( 0.000000000000000000, 0.000000000000000000, 1.000000000000000000 ) ) ;
#284 = FACE_BOUND ( 'NONE', #219, .T. ) ;
#285 = VERTEX_POINT ( 'NONE', #264 ) ;
#286 = VECTOR ( 'NONE', #315, 1000.000000000000000 ) ;
#287 = EDGE_CURVE ( 'NONE', #265, #243, #320, .T. ) ;
#288 = DIRECTION ( 'NONE',  ( -1.000000000000000000, 0.000000000000000000, -0.000000000000000000 ) ) ;
#289 = ORIENTED_EDGE ( 'NONE', *, *, #302, .T. ) ;
#290 = CARTESIAN_POINT ( 'NONE',  ( -1.614212418857619014, 0.000000000000000000, 0.000000000000000000 ) ) ;
#291 = ORIENTED_EDGE ( 'NONE', *, *, #184, .F. ) ;
#292 = FACE_OUTER_BOUND ( 'NONE', #5, .T. ) ;
#293 = AXIS2_PLACEMENT_3D ( 'NONE', #132, #274, #43 ) ;
#294 = DIRECTION ( 'NONE',  ( 0.000000000000000000, 0.000000000000000000, -1.000000000000000000 ) ) ;
#295 = ORIENTED_EDGE ( 'NONE', *, *, #173, .F. ) ;
#296 = CARTESIAN_POINT ( 'NONE',  ( 1.500000000000000888, 0.000000000000000000, 6.349999999999999645 ) ) ;
#297 = PERSON ( 'UNSPECIFIED', 'UNSPECIFIED', 'UNSPECIFIED', ('UNSPECIFIED'), ('UNSPECIFIED'), ('UNSPECIFIED') ) ;
#298 = ORIENTED_EDGE ( 'NONE', *, *, #15, .T. ) ;
#299 = AXIS2_PLACEMENT_3D ( 'NONE', #25, #125, #309 ) ;
#300 = SECURITY_CLASSIFICATION ( '', '', #103 ) ;
#301 = PRODUCT ( 'Q-QZWP-R4-12.7-980-M', 'Q-QZWP-R4-12.7-980-M', '', ( #272 ) ) ;
#302 = EDGE_CURVE ( 'NONE', #321, #19, #152, .T. ) ;
#303 = CIRCLE ( 'NONE', #225, 6.349999999999999645 ) ;
#304 = CARTESIAN_POINT ( 'NONE',  ( -1.500000000000000444, 0.000000000000000000, 6.349999999999999645 ) ) ;
#305 = PERSON_AND_ORGANIZATION_ROLE ( 'design_supplier' ) ;
#306 = CARTESIAN_POINT ( 'NONE',  ( -1.614212418857619014, 7.776507174585692163E-16, -6.349999999999999645 ) ) ;
#307 = CYLINDRICAL_SURFACE ( 'NONE', #32, 6.349999999999999645 ) ;
#308 = CYLINDRICAL_SURFACE ( 'NONE', #24, 6.349999999999999645 ) ;
#309 = DIRECTION ( 'NONE',  ( -0.000000000000000000, 0.000000000000000000, 1.000000000000000000 ) ) ;
#310 = COORDINATED_UNIVERSAL_TIME_OFFSET ( 8, 0, .AHEAD. ) ;
#311 = CARTESIAN_POINT ( 'NONE',  ( 3.000000000000000000, 0.000000000000000000, 12.69999999999999929 ) ) ;
#312 = AXIS2_PLACEMENT_3D ( 'NONE', #176, #172, #283 ) ;
#313 = ORIENTED_EDGE ( 'NONE', *, *, #267, .F. ) ;
#314 = CIRCLE ( 'NONE', #333, 6.349999999999999645 ) ;
#315 = DIRECTION ( 'NONE',  ( -1.000000000000000000, -0.000000000000000000, -0.000000000000000000 ) ) ;
#316 = ORIENTED_EDGE ( 'NONE', *, *, #244, .F. ) ;
#317 = CARTESIAN_POINT ( 'NONE',  ( -3.000000000000000000, 6.349999999999999645, 0.000000000000000000 ) ) ;
#318 = PRODUCT_DEFINITION ( 'UNKNOWN', '', #79, #68 ) ;
#319 = DIRECTION ( 'NONE',  ( 0.000000000000000000, 0.000000000000000000, 1.000000000000000000 ) ) ;
#320 = CIRCLE ( 'NONE', #293, 12.69999999999999929 ) ;
#321 = VERTEX_POINT ( 'NONE', #200 ) ;
#322 = APPROVAL_DATE_TIME ( #119, #61 ) ;
#323 = APPLICATION_PROTOCOL_DEFINITION ( 'international standard', 'config_control_design', 1994, #154 ) ;
#324 = APPLICATION_PROTOCOL_DEFINITION ( 'international standard', 'config_control_design', 1994, #133 ) ;
#325 = AXIS2_PLACEMENT_3D ( 'NONE', #275, #223, #164 ) ;
#326 = EDGE_CURVE ( 'NONE', #86, #239, #205, .T. ) ;
#327 = APPROVAL_ROLE ( '' ) ;
#328 = AXIS2_PLACEMENT_3D ( 'NONE', #99, #204, #47 ) ;
#329 = CC_DESIGN_APPROVAL ( #61, ( #318 ) ) ;
#330 = CARTESIAN_POINT ( 'NONE',  ( -1.614212418857619014, 0.000000000000000000, 0.000000000000000000 ) ) ;
#331 = VERTEX_POINT ( 'NONE', #296 ) ;
#332 = ORIENTED_EDGE ( 'NONE', *, *, #217, .F. ) ;
#333 = AXIS2_PLACEMENT_3D ( 'NONE', #81, #38, #106 ) ;
#334 = DATE_AND_TIME ( #231, #211 ) ;
#335 = CARTESIAN_POINT ( 'NONE',  ( -1.614212418857619014, 0.000000000000000000, 0.000000000000000000 ) ) ;
ENDSEC;
END-ISO-10303-21;
